  0
SECTION
  2
HEADER
  9
$ACADVER
  1
AC1015
  9
$ACADMAINTVER
 70
     6
  9
$DWGCODEPAGE
  3
ANSI_1254
  9
$INSBASE
 10
0.0
 20
0.0
 30
0.0
  9
$EXTMIN
 10
0.0
 20
0.0
 30
0.0
  9
$EXTMAX
 10
279.4
 20
215.9
 30
0.0
  9
$LIMMIN
 10
0.0
 20
0.0
  9
$LIMMAX
 10
279.4
 20
215.9
  9
$ORTHOMODE
 70
     0
  9
$REGENMODE
 70
     1
  9
$FILLMODE
 70
     1
  9
$QTEXTMODE
 70
     0
  9
$MIRRTEXT
 70
     1
  9
$LTSCALE
 40
1.0
  9
$ATTMODE
 70
     1
  9
$TEXTSIZE
 40
3.5
  9
$TRACEWID
 40
1.0
  9
$TEXTSTYLE
  7
Standard
  9
$CLAYER
  8
0
  9
$CELTYPE
  6
ByLayer
  9
$CECOLOR
 62
   256
  9
$CELTSCALE
 40
1.0
  9
$DISPSILH
 70
     0
  9
$DIMSCALE
 40
1.0
  9
$DIMASZ
 40
3.5
  9
$DIMEXO
 40
1.0
  9
$DIMDLI
 40
3.75
  9
$DIMRND
 40
0.0
  9
$DIMDLE
 40
0.0
  9
$DIMEXE
 40
1.0
  9
$DIMTP
 40
0.0
  9
$DIMTM
 40
0.0
  9
$DIMTXT
 40
3.5
  9
$DIMCEN
 40
2.5
  9
$DIMTSZ
 40
0.0
  9
$DIMTOL
 70
     0
  9
$DIMLIM
 70
     0
  9
$DIMTIH
 70
     1
  9
$DIMTOH
 70
     1
  9
$DIMSE1
 70
     0
  9
$DIMSE2
 70
     0
  9
$DIMTAD
 70
     1
  9
$DIMZIN
 70
     0
  9
$DIMBLK
  1

  9
$DIMASO
 70
     1
  9
$DIMSHO
 70
     1
  9
$DIMPOST
  1

  9
$DIMAPOST
  1

  9
$DIMALT
 70
     0
  9
$DIMALTD
 70
     3
  9
$DIMALTF
 40
0.0393700787
  9
$DIMLFAC
 40
1.0
  9
$DIMTOFL
 70
     1
  9
$DIMTVP
 40
0.0
  9
$DIMTIX
 70
     0
  9
$DIMSOXD
 70
     0
  9
$DIMSAH
 70
     0
  9
$DIMBLK1
  1

  9
$DIMBLK2
  1

  9
$DIMSTYLE
  2
ISO-25
  9
$DIMCLRD
 70
     0
  9
$DIMCLRE
 70
     0
  9
$DIMCLRT
 70
     0
  9
$DIMTFAC
 40
1.0
  9
$DIMGAP
 40
1.524
  9
$DIMJUST
 70
     0
  9
$DIMSD1
 70
     0
  9
$DIMSD2
 70
     0
  9
$DIMTOLJ
 70
     0
  9
$DIMTZIN
 70
     0
  9
$DIMALTZ
 70
     0
  9
$DIMALTTZ
 70
     0
  9
$DIMUPT
 70
     0
  9
$DIMDEC
 70
     2
  9
$DIMTDEC
 70
     2
  9
$DIMALTU
 70
     2
  9
$DIMALTTD
 70
     3
  9
$DIMTXSTY
  7
Standard
  9
$DIMAUNIT
 70
     0
  9
$DIMADEC
 70
     2
  9
$DIMALTRND
 40
0.0
  9
$DIMAZIN
 70
     0
  9
$DIMDSEP
 70
    44
  9
$DIMATFIT
 70
     3
  9
$DIMFRAC
 70
     0
  9
$DIMLDRBLK
  1

  9
$DIMLUNIT
 70
     2
  9
$DIMLWD
 70
    -2
  9
$DIMLWE
 70
    -2
  9
$DIMTMOVE
 70
     0
  9
$LUNITS
 70
     2
  9
$LUPREC
 70
     2
  9
$SKETCHINC
 40
1.0
  9
$FILLETRAD
 40
10.0
  9
$AUNITS
 70
     0
  9
$AUPREC
 70
     2
  9
$MENU
  1
.
  9
$ELEVATION
 40
0.0
  9
$PELEVATION
 40
0.0
  9
$THICKNESS
 40
0.0
  9
$LIMCHECK
 70
     0
  9
$CHAMFERA
 40
0.0
  9
$CHAMFERB
 40
0.0
  9
$CHAMFERC
 40
0.0
  9
$CHAMFERD
 40
0.0
  9
$SKPOLY
 70
     0
  9
$TDCREATE
 40
2458985.705920208
  9
$TDUCREATE
 40
2458985.580920208
  9
$TDUPDATE
 40
2458985.705920486
  9
$TDUUPDATE
 40
2458985.580920486
  9
$TDINDWG
 40
0.0000000116
  9
$TDUSRTIMER
 40
0.0000000116
  9
$USRTIMER
 70
     1
  9
$ANGBASE
 50
0.0
  9
$ANGDIR
 70
     0
  9
$PDMODE
 70
     0
  9
$PDSIZE
 40
-1.0
  9
$PLINEWID
 40
0.0
  9
$SPLFRAME
 70
     0
  9
$SPLINETYPE
 70
     6
  9
$SPLINESEGS
 70
     8
  9
$HANDSEED
  5
EF
  9
$SURFTAB1
 70
     6
  9
$SURFTAB2
 70
     6
  9
$SURFTYPE
 70
     6
  9
$SURFU
 70
     6
  9
$SURFV
 70
     6
  9
$UCSBASE
  2

  9
$UCSNAME
  2

  9
$UCSORG
 10
0.0
 20
0.0
 30
0.0
  9
$UCSXDIR
 10
1.0
 20
0.0
 30
0.0
  9
$UCSYDIR
 10
0.0
 20
1.0
 30
0.0
  9
$UCSORTHOREF
  2

  9
$UCSORTHOVIEW
 70
     0
  9
$UCSORGTOP
 10
0.0
 20
0.0
 30
0.0
  9
$UCSORGBOTTOM
 10
0.0
 20
0.0
 30
0.0
  9
$UCSORGLEFT
 10
0.0
 20
0.0
 30
0.0
  9
$UCSORGRIGHT
 10
0.0
 20
0.0
 30
0.0
  9
$UCSORGFRONT
 10
0.0
 20
0.0
 30
0.0
  9
$UCSORGBACK
 10
0.0
 20
0.0
 30
0.0
  9
$PUCSBASE
  2

  9
$PUCSNAME
  2

  9
$PUCSORG
 10
0.0
 20
0.0
 30
0.0
  9
$PUCSXDIR
 10
1.0
 20
0.0
 30
0.0
  9
$PUCSYDIR
 10
0.0
 20
1.0
 30
0.0
  9
$PUCSORTHOREF
  2

  9
$PUCSORTHOVIEW
 70
     0
  9
$PUCSORGTOP
 10
0.0
 20
0.0
 30
0.0
  9
$PUCSORGBOTTOM
 10
0.0
 20
0.0
 30
0.0
  9
$PUCSORGLEFT
 10
0.0
 20
0.0
 30
0.0
  9
$PUCSORGRIGHT
 10
0.0
 20
0.0
 30
0.0
  9
$PUCSORGFRONT
 10
0.0
 20
0.0
 30
0.0
  9
$PUCSORGBACK
 10
0.0
 20
0.0
 30
0.0
  9
$USERI1
 70
     0
  9
$USERI2
 70
     0
  9
$USERI3
 70
     0
  9
$USERI4
 70
     0
  9
$USERI5
 70
     0
  9
$USERR1
 40
0.0
  9
$USERR2
 40
0.0
  9
$USERR3
 40
0.0
  9
$USERR4
 40
0.0
  9
$USERR5
 40
0.0
  9
$WORLDVIEW
 70
     1
  9
$SHADEDGE
 70
     3
  9
$SHADEDIF
 70
    70
  9
$TILEMODE
 70
     1
  9
$MAXACTVP
 70
    64
  9
$PINSBASE
 10
0.0
 20
0.0
 30
0.0
  9
$PLIMCHECK
 70
     0
  9
$PEXTMIN
 10
1.0000000000E+20
 20
1.0000000000E+20
 30
1.0000000000E+20
  9
$PEXTMAX
 10
-1.0000000000E+20
 20
-1.0000000000E+20
 30
-1.0000000000E+20
  9
$PLIMMIN
 10
0.0
 20
0.0
  9
$PLIMMAX
 10
420.0
 20
297.0
  9
$UNITMODE
 70
     0
  9
$VISRETAIN
 70
     1
  9
$PLINEGEN
 70
     0
  9
$PSLTSCALE
 70
     1
  9
$TREEDEPTH
 70
  3020
  9
$CMLSTYLE
  2
Standard
  9
$CMLJUST
 70
     0
  9
$CMLSCALE
 40
20.0
  9
$PROXYGRAPHICS
 70
     1
  9
$MEASUREMENT
 70
     1
  9
$CELWEIGHT
370
    -1
  9
$ENDCAPS
280
     0
  9
$JOINSTYLE
280
     0
  9
$LWDISPLAY
290
     1
  9
$INSUNITS
 70
     4
  9
$HYPERLINKBASE
  1

  9
$STYLESHEET
  1

  9
$XEDIT
290
     1
  9
$CEPSNTYPE
380
     0
  9
$PSTYLEMODE
290
     1
  9
$FINGERPRINTGUID
  2
{ff5e8ac6-3dad-4f52-a6f2-269e66b38e75}
  9
$VERSIONGUID
  2
{FAEB1C32-E019-11D5-929B-00C0DF256EC4}
  9
$EXTNAMES
290
     1
  9
$PSVPSCALE
 40
0.0
  9
$OLESTARTUP
290
     0
  0
ENDSEC
  0
SECTION
  2
CLASSES
  0
CLASS
  1
ACDBDICTIONARYWDFLT
  2
AcDbDictionaryWithDefault
  3
ObjectDBX Classes
 90
        0
280
     0
281
     0
  0
CLASS
  1
VISUALSTYLE
  2
AcDbVisualStyle
  3
ObjectDBX Classes
 90
     4095
280
     0
281
     0
  0
CLASS
  1
MATERIAL
  2
AcDbMaterial
  3
ObjectDBX Classes
 90
     1153
280
     0
281
     0
  0
CLASS
  1
SCALE
  2
AcDbScale
  3
ObjectDBX Classes
 90
     1153
280
     0
281
     0
  0
CLASS
  1
TABLESTYLE
  2
AcDbTableStyle
  3
ObjectDBX Classes
 90
     4095
280
     0
281
     0
  0
CLASS
  1
MLEADERSTYLE
  2
AcDbMLeaderStyle
  3
ACDB_MLEADERSTYLE_CLASS
 90
     4095
280
     0
281
     0
  0
CLASS
  1
SUN
  2
AcDbSun
  3
SCENEOE
 90
     1153
280
     0
281
     0
  0
CLASS
  1
ACDBPLACEHOLDER
  2
AcDbPlaceHolder
  3
ObjectDBX Classes
 90
        0
280
     0
281
     0
  0
CLASS
  1
LAYOUT
  2
AcDbLayout
  3
ObjectDBX Classes
 90
        0
280
     0
281
     0
  0
ENDSEC
  0
SECTION
  2
TABLES
  0
TABLE
  2
VPORT
  5
8
330
0
100
AcDbSymbolTable
 70
     1
  0
VPORT
  5
29
330
8
100
AcDbSymbolTableRecord
100
AcDbViewportTableRecord
  2
*Active
 70
     0
 10
0.0
 20
0.0
 11
1.0
 21
1.0
 12
139.7
 22
107.95
 13
0.0
 23
0.0
 14
10.0
 24
10.0
 15
10.0
 25
10.0
 16
0.0
 26
0.0
 36
1.0
 17
0.0
 27
0.0
 37
0.0
 40
215.9
 41
1.2941176471
 42
50.0
 43
0.0
 44
0.0
 50
0.0
 51
0.0
 71
     0
 72
  2000
 73
     1
 74
     3
 75
     0
 76
     0
 77
     0
 78
     0
281
     0
 65
     1
110
0.0
120
0.0
130
0.0
111
1.0
121
0.0
131
0.0
112
0.0
122
1.0
132
0.0
 79
     0
146
0.0
  0
ENDTAB
  0
TABLE
  2
LTYPE
  5
5
330
0
100
AcDbSymbolTable
 70
     6
  0
LTYPE
  5
14
330
5
100
AcDbSymbolTableRecord
100
AcDbLinetypeTableRecord
  2
ByBlock
 70
     0
  3

 72
    65
 73
     0
 40
0.0
  0
LTYPE
  5
15
330
5
100
AcDbSymbolTableRecord
100
AcDbLinetypeTableRecord
  2
ByLayer
 70
     0
  3

 72
    65
 73
     0
 40
0.0
  0
LTYPE
  5
16
330
5
100
AcDbSymbolTableRecord
100
AcDbLinetypeTableRecord
  2
Continuous
 70
     0
  3
Solid line
 72
    65
 73
     0
 40
0.0
  0
LTYPE
  5
6E
330
5
100
AcDbSymbolTableRecord
100
AcDbLinetypeTableRecord
  2
HIDDEN
 70
     0
  3
Hidden __ __ __ __ __ __ __ __ __ __ __ __ __ __
 72
    65
 73
     2
 40
1.905
 49
1.27
 74
     0
 49
-0.635
 74
     0
  0
LTYPE
  5
6F
330
5
100
AcDbSymbolTableRecord
100
AcDbLinetypeTableRecord
  2
PHANTOM
 70
     0
  3
Phantom ______  __  __  ______  __  __  ______
 72
    65
 73
     6
 40
12.7
 49
6.35
 74
     0
 49
-1.27
 74
     0
 49
1.27
 74
     0
 49
-1.27
 74
     0
 49
1.27
 74
     0
 49
-1.27
 74
     0
  0
LTYPE
  5
70
330
5
100
AcDbSymbolTableRecord
100
AcDbLinetypeTableRecord
  2
CENTER
 70
     0
  3
Center ____ _ ____ _ ____ _ ____ _ ____ _ ____
 72
    65
 73
     4
 40
10.16
 49
6.35
 74
     0
 49
-1.27
 74
     0
 49
1.27
 74
     0
 49
-1.27
 74
     0
  0
LTYPE
  5
71
330
5
100
AcDbSymbolTableRecord
100
AcDbLinetypeTableRecord
  2
CENTERX2
 70
     0
  3
Center (2x) ________  __  ________  __  _____
 72
    65
 73
     4
 40
20.32
 49
12.7
 74
     0
 49
-2.54
 74
     0
 49
2.54
 74
     0
 49
-2.54
 74
     0
  0
LTYPE
  5
72
330
5
100
AcDbSymbolTableRecord
100
AcDbLinetypeTableRecord
  2
DOT2
 70
     0
  3
Dot (.5x) ........................................
 72
    65
 73
     2
 40
0.635
 49
0.0
 74
     0
 49
-0.635
 74
     0
  0
ENDTAB
  0
TABLE
  2
LAYER
  5
2
330
0
100
AcDbSymbolTable
 70
    17
  0
LAYER
  5
10
330
2
100
AcDbSymbolTableRecord
100
AcDbLayerTableRecord
  2
0
 70
     0
 62
     7
  6
Continuous
370
    -3
390
F
  0
LAYER
  5
73
330
2
100
AcDbSymbolTableRecord
100
AcDbLayerTableRecord
  2
FORMAT
 70
     0
 62
     7
  6
Continuous
370
    -3
390
F
  0
LAYER
  5
74
330
2
100
AcDbSymbolTableRecord
100
AcDbLayerTableRecord
  2
YARDIMCI_GEOMETRI
 70
     0
 62
    -6
  6
Continuous
290
     0
370
    -3
390
F
  0
LAYER
  5
75
330
2
100
AcDbSymbolTableRecord
100
AcDbLayerTableRecord
  2
SAYFA_CERCEVESI
 70
     0
 62
     7
  6
Continuous
370
    25
390
F
  0
LAYER
  5
76
330
2
100
AcDbSymbolTableRecord
100
AcDbLayerTableRecord
  2
ANTET
 70
     0
 62
     7
  6
Continuous
370
    -3
390
F
  0
LAYER
  5
77
330
2
100
AcDbSymbolTableRecord
100
AcDbLayerTableRecord
  2
OLCU
 70
     0
 62
   150
  6
Continuous
370
    -3
390
F
  0
LAYER
  5
78
330
2
100
AcDbSymbolTableRecord
100
AcDbLayerTableRecord
  2
METIN
 70
     0
 62
    96
  6
Continuous
370
    -3
390
F
  0
LAYER
  5
79
330
2
100
AcDbSymbolTableRecord
100
AcDbLayerTableRecord
  2
BALON
 70
     0
 62
     5
  6
Continuous
370
    -3
390
F
  0
LAYER
  5
7A
330
2
100
AcDbSymbolTableRecord
100
AcDbLayerTableRecord
  2
VURGU
 70
     0
 62
     7
  6
Continuous
370
    -3
390
F
  0
LAYER
  5
7B
330
2
100
AcDbSymbolTableRecord
100
AcDbLayerTableRecord
  2
SILIK
 70
     0
 62
     7
  6
Continuous
370
    -3
390
F
  0
LAYER
  5
7C
330
2
100
AcDbSymbolTableRecord
100
AcDbLayerTableRecord
  2
MODEL
 70
     0
 62
     7
  6
Continuous
370
    -3
390
F
  0
LAYER
  5
7D
330
2
100
AcDbSymbolTableRecord
100
AcDbLayerTableRecord
  2
DETAYLANDıRMA
 70
     0
 62
   190
  6
Continuous
370
    -3
390
F
  0
LAYER
  5
7E
330
2
100
AcDbSymbolTableRecord
100
AcDbLayerTableRecord
  2
TOLERANS
 70
     0
 62
   230
  6
Continuous
370
    -3
390
F
  0
LAYER
  5
7F
330
2
100
AcDbSymbolTableRecord
100
AcDbLayerTableRecord
  2
MERKEZ_CIZGILERI
 70
     0
 62
    30
  6
Continuous
370
    -3
390
F
  0
LAYER
  5
80
330
2
100
AcDbSymbolTableRecord
100
AcDbLayerTableRecord
  2
KESIT-DETAY_CIZGILERI
 70
     0
 62
     7
  6
Continuous
370
    -3
390
F
  0
LAYER
  5
81
330
2
100
AcDbSymbolTableRecord
100
AcDbLayerTableRecord
  2
\U+041E\U+0421\U+0415\U+0412\U+042B\U+0415
 70
     0
 62
     7
  6
Continuous
370
    -3
390
F
  0
LAYER
  5
82
330
2
100
AcDbSymbolTableRecord
100
AcDbLayerTableRecord
  2
\U+0412\U+041E\U+0414\U+042F\U+041D\U+042B\U+0415_\U+0417\U+041D\U+0410\U+041A\U+0418
 70
     0
 62
    11
  6
Continuous
370
    -3
390
F
  0
ENDTAB
  0
TABLE
  2
STYLE
  5
3
330
0
100
AcDbSymbolTable
 70
     1
  0
STYLE
  5
11
330
3
100
AcDbSymbolTableRecord
100
AcDbTextStyleTableRecord
  2
Standard
 70
     0
 40
0.0
 41
1.0
 50
0.0
 71
     0
 42
3.5
  3
txt
  4

  0
ENDTAB
  0
TABLE
  2
VIEW
  5
6
330
0
100
AcDbSymbolTable
 70
     0
  0
ENDTAB
  0
TABLE
  2
UCS
  5
7
330
0
100
AcDbSymbolTable
 70
     0
  0
ENDTAB
  0
TABLE
  2
APPID
  5
9
330
0
100
AcDbSymbolTable
 70
     1
  0
APPID
  5
12
330
9
100
AcDbSymbolTableRecord
100
AcDbRegAppTableRecord
  2
ACAD
 70
     0
  0
ENDTAB
  0
TABLE
  2
DIMSTYLE
  5
A
330
0
100
AcDbSymbolTable
 70
     1
100
AcDbDimStyleTable
  0
DIMSTYLE
105
27
330
A
100
AcDbSymbolTableRecord
100
AcDbDimStyleTableRecord
  2
ISO-25
 70
     0
 41
2.5
 42
0.625
 43
3.75
 44
1.25
 73
     0
 74
     0
 77
     1
 78
     8
140
2.5
141
2.5
143
0.0393700787
147
0.625
171
     3
172
     1
178
     0
271
     2
272
     2
274
     3
278
    44
283
     0
284
     8
340
11
  0
ENDTAB
  0
TABLE
  2
BLOCK_RECORD
  5
1
330
0
100
AcDbSymbolTable
 70
     2
  0
BLOCK_RECORD
  5
1F
330
1
100
AcDbSymbolTableRecord
100
AcDbBlockTableRecord
  2
*Model_Space
340
22
  0
BLOCK_RECORD
  5
1B
330
1
100
AcDbSymbolTableRecord
100
AcDbBlockTableRecord
  2
*Paper_Space
340
1E
  0
BLOCK_RECORD
  5
23
330
1
100
AcDbSymbolTableRecord
100
AcDbBlockTableRecord
  2
*Paper_Space0
340
26
  0
BLOCK_RECORD
  5
88
330
1
100
AcDbSymbolTableRecord
100
AcDbBlockTableRecord
  2
SW_CENTERMARKSYMBOL_0
340
0
102
{BLKREFS
331
93
102
}
  0
ENDTAB
  0
ENDSEC
  0
SECTION
  2
BLOCKS
  0
BLOCK
  5
20
330
1F
100
AcDbEntity
  8
0
100
AcDbBlockBegin
  2
*Model_Space
 70
     0
 10
0.0
 20
0.0
 30
0.0
  3
*Model_Space
  1

  0
ENDBLK
  5
21
330
1F
100
AcDbEntity
  8
0
100
AcDbBlockEnd
  0
BLOCK
  5
1C
330
1B
100
AcDbEntity
 67
     1
  8
0
100
AcDbBlockBegin
  2
*Paper_Space
 70
     0
 10
0.0
 20
0.0
 30
0.0
  3
*Paper_Space
  1

  0
ENDBLK
  5
1D
330
1B
100
AcDbEntity
 67
     1
  8
0
100
AcDbBlockEnd
  0
BLOCK
  5
24
330
23
100
AcDbEntity
  8
0
100
AcDbBlockBegin
  2
*Paper_Space0
 70
     0
 10
0.0
 20
0.0
 30
0.0
  3
*Paper_Space0
  1

  0
ENDBLK
  5
25
330
23
100
AcDbEntity
  8
0
100
AcDbBlockEnd
  0
BLOCK
  5
89
330
88
100
AcDbEntity
  8
0
100
AcDbBlockBegin
  2
SW_CENTERMARKSYMBOL_0
 70
     0
 10
0.0
 20
0.0
 30
0.0
  3
SW_CENTERMARKSYMBOL_0
  1

  0
LINE
  5
8B
330
88
100
AcDbEntity
  8
FORMAT
 62
     0
100
AcDbLine
 10
0.0
 20
0.0
 30
0.0
 11
0.0
 21
2.5
 31
0.0
  0
LINE
  5
8C
330
88
100
AcDbEntity
  8
FORMAT
 62
     0
100
AcDbLine
 10
0.0
 20
0.0
 30
0.0
 11
-2.5
 21
0.0
 31
0.0
  0
LINE
  5
8D
330
88
100
AcDbEntity
  8
FORMAT
 62
     0
100
AcDbLine
 10
0.0
 20
0.0
 30
0.0
 11
0.0
 21
-2.5
 31
0.0
  0
LINE
  5
8E
330
88
100
AcDbEntity
  8
FORMAT
 62
     0
100
AcDbLine
 10
0.0
 20
0.0
 30
0.0
 11
2.5
 21
0.0
 31
0.0
  0
LINE
  5
8F
330
88
100
AcDbEntity
  8
FORMAT
 62
     0
100
AcDbLine
 10
0.0
 20
5.0
 30
0.0
 11
0.0
 21
115.0
 31
0.0
  0
LINE
  5
90
330
88
100
AcDbEntity
  8
FORMAT
 62
     0
100
AcDbLine
 10
-5.0
 20
0.0
 30
0.0
 11
-115.0
 21
0.0
 31
0.0
  0
LINE
  5
91
330
88
100
AcDbEntity
  8
FORMAT
 62
     0
100
AcDbLine
 10
0.0
 20
-5.0
 30
0.0
 11
0.0
 21
-115.0
 31
0.0
  0
LINE
  5
92
330
88
100
AcDbEntity
  8
FORMAT
 62
     0
100
AcDbLine
 10
5.0
 20
0.0
 30
0.0
 11
115.0
 21
0.0
 31
0.0
  0
ENDBLK
  5
8A
330
88
100
AcDbEntity
  8
0
100
AcDbBlockEnd
  0
ENDSEC
  0
SECTION
  2
ENTITIES
  0
CIRCLE
  5
83
330
1F
100
AcDbEntity
  8
0
  6
Continuous
 62
     7
370
    25
100
AcDbCircle
 10
130.6810329512
 20
112.0420513222
 30
0.0
 40
112.5
  0
CIRCLE
  5
84
330
1F
100
AcDbEntity
  8
0
  6
Continuous
 62
     7
370
    25
100
AcDbCircle
 10
130.6810329512
 20
112.0420513222
 30
0.0
 40
99.10000000000002
  0
CIRCLE
  5
85
330
1F
100
AcDbEntity
  8
0
  6
Continuous
 62
     7
370
    25
100
AcDbCircle
 10
130.6810329512
 20
112.0420513222
 30
0.0
 40
99.01760466342628
  0
CIRCLE
  5
86
330
1F
100
AcDbEntity
  8
0
  6
Continuous
 62
     7
370
    25
100
AcDbCircle
 10
130.6810329512
 20
112.0420513222
 30
0.0
 40
88.18239533657378
  0
CIRCLE
  5
87
330
1F
100
AcDbEntity
  8
0
  6
Continuous
 62
     7
370
    25
100
AcDbCircle
 10
130.6810329512
 20
112.0420513222
 30
0.0
 40
88.10000000000004
  0
INSERT
  5
93
330
1F
100
AcDbEntity
  8
FORMAT
 62
     7
100
AcDbBlockReference
  2
SW_CENTERMARKSYMBOL_0
 10
130.6810329512
 20
112.0420513222
 30
0.0
  0
ARC
  5
94
330
1F
100
AcDbEntity
  8
0
  6
Continuous
 62
     7
370
    25
100
AcDbCircle
 10
-242.1266503955
 20
222.5420513222
 30
0.0
 40
2.000000000000028
100
AcDbArc
 50
79.5839716924
 51
90.0
  0
ARC
  5
95
330
1F
100
AcDbEntity
  8
0
  6
Continuous
 62
     7
370
    25
100
AcDbCircle
 10
-242.1266503955
 20
1.5420513222
 30
0.0
 40
2.000000000000002
100
AcDbArc
 50
270.0
 51
280.4160283076
  0
LINE
  5
96
330
1F
100
AcDbEntity
  8
0
  6
Continuous
 62
     7
370
    25
100
AcDbLine
 10
-242.1266498708
 20
224.542048342
 30
0.0
 11
-361.9443556958
 21
224.542048342
 31
0.0
  0
LINE
  5
97
330
1F
100
AcDbEntity
  8
0
  6
Continuous
 62
     7
370
    25
100
AcDbLine
 10
-361.9443556958
 20
-0.4579456975
 30
0.0
 11
-242.1266498708
 21
-0.4579456975
 31
0.0
  0
LINE
  5
98
330
1F
100
AcDbEntity
  8
0
  6
Continuous
 62
     7
370
    25
100
AcDbLine
 10
-241.7650620185
 20
-0.4249917796
 30
0.0
 11
-174.123645454
 21
12.0090959141
 31
0.0
  0
LINE
  5
99
330
1F
100
AcDbEntity
  8
0
  6
Continuous
 62
     7
370
    25
100
AcDbLine
 10
-174.123645454
 20
212.0750067303
 30
0.0
 11
-241.7650620185
 21
224.509094424
 31
0.0
  0
ARC
  5
9A
330
1F
100
AcDbEntity
  8
0
  6
Continuous
 62
     7
370
    25
100
AcDbCircle
 10
-173.7620577439
 20
214.0420513222
 30
0.0
 40
2.000000000000029
100
AcDbArc
 50
259.5839716924
 51
270.0
  0
ARC
  5
9B
330
1F
100
AcDbEntity
  8
0
  6
Continuous
 62
     7
370
    25
100
AcDbCircle
 10
-173.7620577439
 20
10.0420513222
 30
0.0
 40
2.000000000000024
100
AcDbArc
 50
90.0
 51
100.4160283076
  0
LINE
  5
9C
330
1F
100
AcDbEntity
  8
0
  6
Continuous
 62
     7
370
    25
100
AcDbLine
 10
-61.944358676
 20
212.0420528123
 30
0.0
 11
-173.7620576017
 21
212.0420528123
 31
0.0
  0
LINE
  5
9D
330
1F
100
AcDbEntity
  8
0
  6
Continuous
 62
     7
370
    25
100
AcDbLine
 10
-173.7620576017
 20
12.0420498321
 30
0.0
 11
-61.944358676
 21
12.0420498321
 31
0.0
  0
LINE
  5
9E
330
1F
100
AcDbEntity
  8
0
  6
Continuous
 62
     7
370
    25
100
AcDbLine
 10
-361.9443556958
 20
224.542048342
 30
0.0
 11
-361.9443556958
 21
-0.4579456975
 31
0.0
  0
LINE
  5
9F
330
1F
100
AcDbEntity
  8
0
  6
Continuous
 62
     7
370
    25
100
AcDbLine
 10
-61.944358676
 20
212.0420528123
 30
0.0
 11
-61.944358676
 21
12.0420498321
 31
0.0
  0
LINE
  5
A0
330
1F
100
AcDbEntity
  8
0
  6
Continuous
 62
     1
370
    25
100
AcDbLine
 10
-241.7650620185
 20
224.509094424
 30
0.0
 11
-241.7650620185
 21
-0.4249917796
 31
0.0
  0
LINE
  5
A1
330
1F
100
AcDbEntity
  8
0
  6
Continuous
 62
     1
370
    25
100
AcDbLine
 10
-242.1266498708
 20
224.542048342
 30
0.0
 11
-242.1266498708
 21
-0.4579456975
 31
0.0
  0
LINE
  5
A2
330
1F
100
AcDbEntity
  8
0
  6
Continuous
 62
     1
370
    25
100
AcDbLine
 10
-174.123645454
 20
212.0750067303
 30
0.0
 11
-174.123645454
 21
12.0090959141
 31
0.0
  0
LINE
  5
A3
330
1F
100
AcDbEntity
  8
0
  6
Continuous
 62
     1
370
    25
100
AcDbLine
 10
-173.7620576017
 20
212.0420528123
 30
0.0
 11
-173.7620576017
 21
12.0420498321
 31
0.0
  0
ARC
  5
A4
330
1F
100
AcDbEntity
  8
0
  6
Continuous
 62
     7
370
    25
100
AcDbCircle
 10
241.1810329512
 20
441.4018796661
 30
0.0
 40
2.000000000000024
100
AcDbArc
 50
349.5839716924
 51
0.0
  0
ARC
  5
A5
330
1F
100
AcDbEntity
  8
0
  6
Continuous
 62
     7
370
    25
100
AcDbCircle
 10
20.1810329512
 20
441.4018796661
 30
0.0
 40
2.000000000000007
100
AcDbArc
 50
180.0
 51
190.4160283076
  0
LINE
  5
A6
330
1F
100
AcDbEntity
  8
0
  6
Continuous
 62
     7
370
    25
100
AcDbLine
 10
243.1810299709
 20
441.4018791414
 30
0.0
 11
243.1810299709
 21
561.2195849663
 31
0.0
  0
LINE
  5
A7
330
1F
100
AcDbEntity
  8
0
  6
Continuous
 62
     7
370
    25
100
AcDbLine
 10
18.1810359314
 20
561.2195849663
 30
0.0
 11
18.1810359314
 21
441.4018791414
 31
0.0
  0
LINE
  5
A8
330
1F
100
AcDbEntity
  8
0
  6
Continuous
 62
     7
370
    25
100
AcDbLine
 10
18.2139898494
 20
441.0402912891
 30
0.0
 11
30.6480775431
 21
373.3988747245
 31
0.0
  0
LINE
  5
A9
330
1F
100
AcDbEntity
  8
0
  6
Continuous
 62
     7
370
    25
100
AcDbLine
 10
230.7139883593
 20
373.3988747245
 30
0.0
 11
243.148076053
 21
441.0402912891
 31
0.0
  0
ARC
  5
AA
330
1F
100
AcDbEntity
  8
0
  6
Continuous
 62
     7
370
    25
100
AcDbCircle
 10
232.6810329512
 20
373.0372870145
 30
0.0
 40
2.000000000000024
100
AcDbArc
 50
169.5839716924
 51
180.0
  0
ARC
  5
AB
330
1F
100
AcDbEntity
  8
0
  6
Continuous
 62
     7
370
    25
100
AcDbCircle
 10
28.6810329512
 20
373.0372870145
 30
0.0
 40
2.000000000000021
100
AcDbArc
 50
0.0
 51
10.4160283076
  0
LINE
  5
AC
330
1F
100
AcDbEntity
  8
0
  6
Continuous
 62
     7
370
    25
100
AcDbLine
 10
230.6810344413
 20
261.2195879466
 30
0.0
 11
230.6810344413
 21
373.0372868723
 31
0.0
  0
LINE
  5
AD
330
1F
100
AcDbEntity
  8
0
  6
Continuous
 62
     7
370
    25
100
AcDbLine
 10
30.6810314611
 20
373.0372868723
 30
0.0
 11
30.6810314611
 21
261.2195879466
 31
0.0
  0
LINE
  5
AE
330
1F
100
AcDbEntity
  8
0
  6
Continuous
 62
     7
370
    25
100
AcDbLine
 10
243.1810299709
 20
561.2195849663
 30
0.0
 11
18.1810359314
 21
561.2195849663
 31
0.0
  0
LINE
  5
AF
330
1F
100
AcDbEntity
  8
0
  6
Continuous
 62
     7
370
    25
100
AcDbLine
 10
230.6810344413
 20
261.2195879466
 30
0.0
 11
30.6810314611
 21
261.2195879466
 31
0.0
  0
LINE
  5
B0
330
1F
100
AcDbEntity
  8
0
  6
Continuous
 62
     1
370
    25
100
AcDbLine
 10
243.148076053
 20
441.0402912891
 30
0.0
 11
18.2139898494
 21
441.0402912891
 31
0.0
  0
LINE
  5
B1
330
1F
100
AcDbEntity
  8
0
  6
Continuous
 62
     1
370
    25
100
AcDbLine
 10
243.1810299709
 20
441.4018791414
 30
0.0
 11
18.1810359314
 21
441.4018791414
 31
0.0
  0
LINE
  5
B2
330
1F
100
AcDbEntity
  8
0
  6
Continuous
 62
     1
370
    25
100
AcDbLine
 10
230.7139883593
 20
373.3988747245
 30
0.0
 11
30.6480775431
 21
373.3988747245
 31
0.0
  0
LINE
  5
B3
330
1F
100
AcDbEntity
  8
0
  6
Continuous
 62
     1
370
    25
100
AcDbLine
 10
230.6810344413
 20
373.0372868723
 30
0.0
 11
30.6810314611
 21
373.0372868723
 31
0.0
  0
ARC
  5
B4
330
1F
100
AcDbEntity
  8
0
  6
Continuous
 62
     7
370
    25
100
AcDbCircle
 10
498.8023263848
 20
1.5420513222
 30
0.0
 40
2.000000000000006
100
AcDbArc
 50
259.5839716924
 51
270.0
  0
ARC
  5
B5
330
1F
100
AcDbEntity
  8
0
  6
Continuous
 62
     7
370
    25
100
AcDbCircle
 10
498.8023263848
 20
222.5420513222
 30
0.0
 40
2.000000000000028
100
AcDbArc
 50
90.0
 51
100.4160283076
  0
LINE
  5
B6
330
1F
100
AcDbEntity
  8
0
  6
Continuous
 62
     7
370
    25
100
AcDbLine
 10
498.80232586
 20
-0.4579456975
 30
0.0
 11
618.620031685
 21
-0.4579456975
 31
0.0
  0
LINE
  5
B7
330
1F
100
AcDbEntity
  8
0
  6
Continuous
 62
     7
370
    25
100
AcDbLine
 10
618.620031685
 20
224.542048342
 30
0.0
 11
498.80232586
 21
224.542048342
 31
0.0
  0
LINE
  5
B8
330
1F
100
AcDbEntity
  8
0
  6
Continuous
 62
     7
370
    25
100
AcDbLine
 10
498.4407380078
 20
224.509094424
 30
0.0
 11
430.7993214432
 21
212.0750067303
 31
0.0
  0
LINE
  5
B9
330
1F
100
AcDbEntity
  8
0
  6
Continuous
 62
     7
370
    25
100
AcDbLine
 10
430.7993214432
 20
12.0090959141
 30
0.0
 11
498.4407380078
 21
-0.4249917796
 31
0.0
  0
ARC
  5
BA
330
1F
100
AcDbEntity
  8
0
  6
Continuous
 62
     7
370
    25
100
AcDbCircle
 10
430.4377337332
 20
10.0420513222
 30
0.0
 40
2.000000000000029
100
AcDbArc
 50
79.5839716924
 51
90.0
  0
ARC
  5
BB
330
1F
100
AcDbEntity
  8
0
  6
Continuous
 62
     7
370
    25
100
AcDbCircle
 10
430.4377337332
 20
214.0420513222
 30
0.0
 40
2.000000000000035
100
AcDbArc
 50
270.0
 51
280.4160283076
  0
LINE
  5
BC
330
1F
100
AcDbEntity
  8
0
  6
Continuous
 62
     7
370
    25
100
AcDbLine
 10
318.6200346652
 20
12.0420498321
 30
0.0
 11
430.437733591
 21
12.0420498321
 31
0.0
  0
LINE
  5
BD
330
1F
100
AcDbEntity
  8
0
  6
Continuous
 62
     7
370
    25
100
AcDbLine
 10
430.437733591
 20
212.0420528123
 30
0.0
 11
318.6200346652
 21
212.0420528123
 31
0.0
  0
LINE
  5
BE
330
1F
100
AcDbEntity
  8
0
  6
Continuous
 62
     7
370
    25
100
AcDbLine
 10
618.620031685
 20
112.0420513222
 30
0.0
 11
618.620031685
 21
224.542048342
 31
0.0
  0
LINE
  5
BF
330
1F
100
AcDbEntity
  8
0
  6
Continuous
 62
     7
370
    25
100
AcDbLine
 10
618.620031685
 20
-0.4579456975
 30
0.0
 11
618.620031685
 21
112.0420513222
 31
0.0
  0
LINE
  5
C0
330
1F
100
AcDbEntity
  8
0
  6
Continuous
 62
     7
370
    25
100
AcDbLine
 10
318.6200346652
 20
112.0420513222
 30
0.0
 11
318.6200346652
 21
212.0420528123
 31
0.0
  0
LINE
  5
C1
330
1F
100
AcDbEntity
  8
0
  6
Continuous
 62
     7
370
    25
100
AcDbLine
 10
318.6200346652
 20
12.0420498321
 30
0.0
 11
318.6200346652
 21
112.0420513222
 31
0.0
  0
LINE
  5
C2
330
1F
100
AcDbEntity
  8
0
  6
Continuous
 62
     1
370
    25
100
AcDbLine
 10
498.4407380078
 20
112.0420513222
 30
0.0
 11
498.4407380078
 21
224.509094424
 31
0.0
  0
LINE
  5
C3
330
1F
100
AcDbEntity
  8
0
  6
Continuous
 62
     1
370
    25
100
AcDbLine
 10
498.4407380078
 20
-0.4249917796
 30
0.0
 11
498.4407380078
 21
112.0420513222
 31
0.0
  0
LINE
  5
C4
330
1F
100
AcDbEntity
  8
0
  6
Continuous
 62
     1
370
    25
100
AcDbLine
 10
498.80232586
 20
112.0420513222
 30
0.0
 11
498.80232586
 21
224.542048342
 31
0.0
  0
LINE
  5
C5
330
1F
100
AcDbEntity
  8
0
  6
Continuous
 62
     1
370
    25
100
AcDbLine
 10
498.80232586
 20
-0.4579456975
 30
0.0
 11
498.80232586
 21
112.0420513222
 31
0.0
  0
LINE
  5
C6
330
1F
100
AcDbEntity
  8
0
  6
Continuous
 62
     1
370
    25
100
AcDbLine
 10
430.7993214432
 20
112.0420513222
 30
0.0
 11
430.7993214432
 21
212.0750067303
 31
0.0
  0
LINE
  5
C7
330
1F
100
AcDbEntity
  8
0
  6
Continuous
 62
     1
370
    25
100
AcDbLine
 10
430.7993214432
 20
12.0090959141
 30
0.0
 11
430.7993214432
 21
112.0420513222
 31
0.0
  0
LINE
  5
C8
330
1F
100
AcDbEntity
  8
0
  6
Continuous
 62
     1
370
    25
100
AcDbLine
 10
430.437733591
 20
112.0420513222
 30
0.0
 11
430.437733591
 21
212.0420528123
 31
0.0
  0
LINE
  5
C9
330
1F
100
AcDbEntity
  8
0
  6
Continuous
 62
     1
370
    25
100
AcDbLine
 10
430.437733591
 20
12.0420498321
 30
0.0
 11
430.437733591
 21
112.0420513222
 31
0.0
  0
ARC
  5
CA
330
1F
100
AcDbEntity
  8
0
  6
Continuous
 62
     7
370
    25
100
AcDbCircle
 10
20.1810329512
 20
-254.0311706467
 30
0.0
 40
2.000000000000012
100
AcDbArc
 50
169.5839716924
 51
180.0
  0
ARC
  5
CB
330
1F
100
AcDbEntity
  8
0
  6
Continuous
 62
     7
370
    25
100
AcDbCircle
 10
241.1810329512
 20
-254.0311706467
 30
0.0
 40
2.000000000000029
100
AcDbArc
 50
0.0
 51
10.4160283076
  0
LINE
  5
CC
330
1F
100
AcDbEntity
  8
0
  6
Continuous
 62
     7
370
    25
100
AcDbLine
 10
18.1810359314
 20
-254.0311701219
 30
0.0
 11
18.1810359314
 21
-373.8488759469
 31
0.0
  0
LINE
  5
CD
330
1F
100
AcDbEntity
  8
0
  6
Continuous
 62
     7
370
    25
100
AcDbLine
 10
243.1810299709
 20
-373.8488759469
 30
0.0
 11
243.1810299709
 21
-254.0311701219
 31
0.0
  0
LINE
  5
CE
330
1F
100
AcDbEntity
  8
0
  6
Continuous
 62
     7
370
    25
100
AcDbLine
 10
243.148076053
 20
-253.6695822697
 30
0.0
 11
230.7139883593
 21
-186.0281657051
 31
0.0
  0
LINE
  5
CF
330
1F
100
AcDbEntity
  8
0
  6
Continuous
 62
     7
370
    25
100
AcDbLine
 10
30.6480775431
 20
-186.0281657051
 30
0.0
 11
18.2139898494
 21
-253.6695822697
 31
0.0
  0
ARC
  5
D0
330
1F
100
AcDbEntity
  8
0
  6
Continuous
 62
     7
370
    25
100
AcDbCircle
 10
28.6810329512
 20
-185.6665779951
 30
0.0
 40
2.000000000000021
100
AcDbArc
 50
349.5839716924
 51
0.0
  0
ARC
  5
D1
330
1F
100
AcDbEntity
  8
0
  6
Continuous
 62
     7
370
    25
100
AcDbCircle
 10
232.6810329512
 20
-185.6665779951
 30
0.0
 40
2.000000000000024
100
AcDbArc
 50
180.0
 51
190.4160283076
  0
LINE
  5
D2
330
1F
100
AcDbEntity
  8
0
  6
Continuous
 62
     7
370
    25
100
AcDbLine
 10
30.6810314611
 20
-73.8488789271
 30
0.0
 11
30.6810314611
 21
-185.6665778528
 31
0.0
  0
LINE
  5
D3
330
1F
100
AcDbEntity
  8
0
  6
Continuous
 62
     7
370
    25
100
AcDbLine
 10
230.6810344413
 20
-185.6665778528
 30
0.0
 11
230.6810344413
 21
-73.8488789271
 31
0.0
  0
LINE
  5
D4
330
1F
100
AcDbEntity
  8
0
  6
Continuous
 62
     7
370
    25
100
AcDbLine
 10
18.1810359314
 20
-373.8488759469
 30
0.0
 11
243.1810299709
 21
-373.8488759469
 31
0.0
  0
LINE
  5
D5
330
1F
100
AcDbEntity
  8
0
  6
Continuous
 62
     7
370
    25
100
AcDbLine
 10
30.6810314611
 20
-73.8488789271
 30
0.0
 11
230.6810344413
 21
-73.8488789271
 31
0.0
  0
LINE
  5
D6
330
1F
100
AcDbEntity
  8
0
  6
Continuous
 62
     1
370
    25
100
AcDbLine
 10
18.2139898494
 20
-253.6695822697
 30
0.0
 11
243.148076053
 21
-253.6695822697
 31
0.0
  0
LINE
  5
D7
330
1F
100
AcDbEntity
  8
0
  6
Continuous
 62
     1
370
    25
100
AcDbLine
 10
18.1810359314
 20
-254.0311701219
 30
0.0
 11
243.1810299709
 21
-254.0311701219
 31
0.0
  0
LINE
  5
D8
330
1F
100
AcDbEntity
  8
0
  6
Continuous
 62
     1
370
    25
100
AcDbLine
 10
30.6480775431
 20
-186.0281657051
 30
0.0
 11
230.7139883593
 21
-186.0281657051
 31
0.0
  0
LINE
  5
D9
330
1F
100
AcDbEntity
  8
0
  6
Continuous
 62
     1
370
    25
100
AcDbLine
 10
30.6810314611
 20
-185.6665778528
 30
0.0
 11
230.6810344413
 21
-185.6665778528
 31
0.0
  0
LINE
  5
DA
330
1F
100
AcDbEntity
  8
0
  6
Continuous
 62
     7
370
    25
100
AcDbLine
 10
496.3046453088
 20
-121.8163800531
 30
0.0
 11
411.5807330137
 21
-72.9063065653
 31
0.0
  0
LINE
  5
DB
330
1F
100
AcDbEntity
  8
0
  6
Continuous
 62
     7
370
    25
100
AcDbLine
 10
299.0898776442
 20
-267.7673054977
 30
0.0
 11
383.8137899393
 21
-316.6773789854
 31
0.0
  0
LINE
  5
DC
330
1F
100
AcDbEntity
  8
0
  6
Continuous
 62
     7
370
    25
100
AcDbLine
 10
391.8736397813
 20
-320.1902775419
 30
0.0
 11
445.0588941141
 21
-336.6580361549
 31
0.0
  0
LINE
  5
DD
330
1F
100
AcDbEntity
  8
0
  6
Continuous
 62
     7
370
    25
100
AcDbLine
 10
544.2349989591
 20
-164.861371081
 30
0.0
 11
503.3773211283
 21
-127.039308846
 31
0.0
  0
LINE
  5
DE
330
1F
100
AcDbEntity
  8
0
  6
Continuous
 62
     7
370
    25
100
AcDbLine
 10
617.463272712
 20
-206.1931348639
 30
0.0
 11
541.531262822
 21
-162.3585186004
 31
0.0
  0
LINE
  5
DF
330
1F
100
AcDbEntity
  8
0
  6
Continuous
 62
     7
370
    25
100
AcDbLine
 10
441.5393925532
 20
-335.5682920494
 30
0.0
 11
517.4714024432
 21
-379.4029083129
 31
0.0
  0
LWPOLYLINE
  5
E0
330
1F
100
AcDbEntity
  8
0
  6
Continuous
 62
     7
370
    25
100
AcDbPolyline
 90
      122
 70
   128
 43
0.0
 10
275.7857945528
 20
-216.259761105
 10
275.8930161354
 20
-211.4299348408
 10
276.2144069288
 20
-206.4893254272
 10
276.7490923857
 20
-201.4512557118
 10
277.4956289766
 20
-196.329308567
 10
278.452009458
 20
-191.1372892478
 10
279.6156523352
 20
-185.889194592
 10
280.9834229365
 20
-180.599174999
 10
282.5516334126
 20
-175.2814903227
 10
284.316058542
 20
-169.9504733713
 10
286.2719357307
 20
-164.6204994885
 10
288.4139966227
 20
-159.3059348448
 10
290.7364670997
 20
-154.0211060192
 10
293.2330830865
 20
-148.7802634987
 10
295.8971116239
 20
-143.5975390937
 10
298.7213824793
 20
-138.4868911883
 10
301.6982670732
 20
-133.462104738
 10
304.819752236
 20
-128.5367304397
 10
308.0774191346
 20
-123.7240360597
 10
311.4624827855
 20
-119.0370079592
 10
314.9658183957
 20
-114.4882750496
 10
318.5779850714
 20
-110.0900951068
 10
322.2892442563
 20
-105.854331959
 10
326.089588708
 20
-101.7924022572
 10
329.9687714741
 20
-97.9152526635
 10
333.9163414531
 20
-94.2333454063
 10
337.9216526146
 20
-90.7565921203
 10
341.9739074628
 20
-87.4943774254
 10
346.0621820614
 20
-84.4554958104
 10
350.1754559973
 20
-81.6481282516
 10
354.3026394634
 20
-79.0798509131
 10
358.4326067618
 20
-76.7575853872
 10
362.5542247859
 20
-74.6875944195
 10
366.6563808442
 20
-72.875459763
 10
370.7280179743
 20
-71.3260557078
 10
374.758160215
 20
-70.043577078
 10
378.7359389477
 20
-69.0314631878
 10
382.650635702
 20
-68.2924522189
 10
386.4916966436
 20
-67.8285363542
 10
390.2487641844
 20
-67.6409678647
 10
393.91170991
 20
-67.7302461845
 10
397.4706609211
 20
-68.0961331228
 10
400.9160209071
 20
-68.7376406984
 10
404.2385096588
 20
-69.6530448315
 10
407.4291577999
 20
-70.839876218
 10
410.4793726419
 20
-72.2949309819
 10
413.3809250124
 20
-74.0142904462
 10
416.1260019395
 20
-75.9933150541
 10
418.7071961145
 20
-78.2266747868
 10
421.1175533074
 20
-80.7083461254
 10
423.3505670985
 20
-83.4316424698
 10
425.4002262935
 20
-86.3892202263
 10
427.2610043869
 20
-89.5731031415
 10
428.9278859037
 20
-92.9747127232
 10
430.3963716679
 20
-96.5848743252
 10
431.662505144
 20
-100.3938627766
 10
432.7228724373
 20
-104.3914023825
 10
433.5746180989
 20
-108.5667201577
 10
434.2154503938
 20
-112.9085549526
 10
434.6436254961
 20
-117.4052122053
 10
434.8580054411
 20
-122.0445605247
 10
434.8580054411
 20
-126.8140963251
 10
434.6436254961
 20
-131.7009624604
 10
434.2154503938
 20
-136.6919801635
 10
433.5746180989
 20
-141.7737041772
 10
432.7228724373
 20
-146.9324265608
 10
431.662505144
 20
-152.1542401842
 10
430.3963716679
 20
-157.4250752308
 10
428.9278859037
 20
-162.7307144068
 10
427.2610043869
 20
-168.056864423
 10
425.4002262935
 20
-173.3891559946
 10
423.3505670985
 20
-178.7132198855
 10
421.1175533074
 20
-184.014699075
 10
418.7071961145
 20
-189.279309592
 10
416.1260019395
 20
-194.4928526841
 10
413.3809250124
 20
-199.6412756495
 10
410.4793726419
 20
-204.7106961728
 10
407.4291577999
 20
-209.6874540316
 10
404.2385096588
 20
-214.5581293491
 10
400.9160209071
 20
-219.309597342
 10
397.4706609211
 20
-223.9290328848
 10
393.91170991
 20
-228.4039971963
 10
390.2487641844
 20
-232.722422631
 10
386.4916966436
 20
-236.872671991
 10
382.650635702
 20
-240.8435506922
 10
378.7359389477
 20
-244.6243523889
 10
374.758160215
 20
-248.2048840663
 10
370.7280179743
 20
-251.5755086235
 10
366.6563808442
 20
-254.7271167349
 10
362.5542247859
 20
-257.6512306495
 10
358.4326067618
 20
-260.3399585603
 10
354.3026394634
 20
-262.7860517797
 10
350.1754559973
 20
-264.9829190421
 10
346.0621820614
 20
-266.9246364826
 10
341.9739074628
 20
-268.6059762465
 10
337.9216526146
 20
-270.0223954118
 10
333.9163414531
 20
-271.170075959
 10
329.9687714741
 20
-272.0459359848
 10
326.089588708
 20
-272.6475954786
 10
322.2892442563
 20
-272.9734500841
 10
318.5779850714
 20
-273.022615584
 10
314.9658183957
 20
-272.7949545129
 10
311.4624827855
 20
-272.2910868015
 10
308.0774191346
 20
-271.5123700015
 10
304.819752236
 20
-270.4608977629
 10
301.6982670732
 20
-269.1395135204
 10
298.7213824793
 20
-267.5517648628
 10
295.8971116239
 20
-265.7019506783
 10
293.2330830865
 20
-263.5950481519
 10
290.7364670997
 20
-261.2367370932
 10
288.4139966227
 20
-258.6333756039
 10
286.2719357307
 20
-255.7919818231
 10
284.316058542
 20
-252.7202156751
 10
282.5516334126
 20
-249.4263606159
 10
280.9834229365
 20
-245.9192932152
 10
279.6156523352
 20
-242.2084679443
 10
278.452009458
 20
-238.3038867571
 10
277.4956289766
 20
-234.2160808378
 10
276.7490923857
 20
-229.9560664942
 10
276.2144069288
 20
-225.535331467
 10
275.8930161354
 20
-220.965791965
 10
275.7857945528
 20
-216.259761105
  0
LWPOLYLINE
  5
E1
330
1F
100
AcDbEntity
  8
0
  6
Continuous
 62
     7
370
    25
100
AcDbPolyline
 90
      115
 70
   128
 43
0.0
 10
285.2610224957
 20
-210.7898284443
 10
285.3674274831
 20
-206.2707451117
 10
285.6863263441
 20
-201.6425294375
 10
286.2167444326
 20
-196.9192407681
 10
286.9570749001
 20
-192.1152197619
 10
287.9050681586
 20
-187.2450594907
 10
289.0578424173
 20
-182.3235522083
 10
290.4118994877
 20
-177.3656406823
 10
291.9631247839
 20
-172.3863816918
 10
293.7068136638
 20
-167.4008958395
 10
295.6376661612
 20
-162.424328007
 10
297.7498133274
 20
-157.4717926041
 10
300.0368488416
 20
-152.5583279437
 10
302.491823742
 20
-147.6988566976
 10
305.1072833049
 20
-142.9081281046
 10
307.8752828492
 20
-138.2007058044
 10
310.787419347
 20
-133.5908826691
 10
313.8348445944
 20
-129.0926488646
 10
317.008304724
 20
-124.7196751246
 10
320.2981639123
 20
-120.4852382269
 10
323.6944307223
 20
-116.4021997034
 10
327.1867870786
 20
-112.4829586938
 10
330.7646304145
 20
-108.7394215312
 10
334.4170947457
 20
-105.1829469906
 10
338.1330862314
 20
-101.8243500947
 10
341.9013200529
 20
-98.6738139039
 10
345.7103533409
 20
-95.7409252603
 10
349.5486167854
 20
-93.0345774525
 10
353.4044546426
 20
-90.5629897054
 10
357.2661560154
 20
-88.3336769551
 10
361.1219938725
 20
-86.3534090728
 10
364.960257317
 20
-84.6281922361
 10
368.769290605
 20
-83.1632646555
 10
372.5375244265
 20
-81.9630906835
 10
376.2535159122
 20
-81.0312951335
 10
379.9059802434
 20
-80.3707241196
 10
383.4838235793
 20
-79.9833712951
 10
386.9761799356
 20
-79.8704234833
 10
390.3724467456
 20
-80.0322158141
 10
393.662305934
 20
-80.4682621439
 10
396.8357660635
 20
-81.1772368088
 10
399.8831913109
 20
-82.1569883155
 10
402.7953278088
 20
-83.4045302186
 10
405.5633273531
 20
-84.9160882708
 10
408.1787869159
 20
-86.6870715297
 10
410.6337618163
 20
-88.7120890888
 10
412.9207973305
 20
-90.9849987503
 10
415.0329444968
 20
-93.4989009428
 10
416.9637969942
 20
-96.2461539341
 10
418.7074858741
 20
-99.2184194583
 10
420.2587111702
 20
-102.4066718445
 10
421.6127682407
 20
-105.8012223541
 10
422.7655424994
 20
-109.3917648077
 10
423.7135357578
 20
-113.1673953604
 10
424.4538662254
 20
-117.116649003
 10
424.9842843139
 20
-121.2275299829
 10
425.3031831748
 20
-125.4875528696
 10
425.4095881622
 20
-129.8837836187
 10
425.3031831748
 20
-134.4028669513
 10
424.9842843139
 20
-139.0310826255
 10
424.4538662254
 20
-143.754371295
 10
423.7135357578
 20
-148.5583923012
 10
422.7655424994
 20
-153.4285525723
 10
421.6127682407
 20
-158.3500598547
 10
420.2587111702
 20
-163.3079713807
 10
418.7074858741
 20
-168.2872303712
 10
416.9637969942
 20
-173.2727162235
 10
415.0329444968
 20
-178.249284056
 10
412.9207973305
 20
-183.2018194589
 10
410.6337618163
 20
-188.1152841193
 10
408.1787869159
 20
-192.9747553654
 10
405.5633273531
 20
-197.7654839584
 10
402.7953278088
 20
-202.4729062586
 10
399.8831913109
 20
-207.082729394
 10
396.8357660635
 20
-211.5809631984
 10
393.662305934
 20
-215.9539369384
 10
390.3724467456
 20
-220.1883738361
 10
386.9761799356
 20
-224.2714123596
 10
383.4838235793
 20
-228.1906533692
 10
379.9059802434
 20
-231.9341905318
 10
376.2535159122
 20
-235.4906650724
 10
372.5375244265
 20
-238.8492619683
 10
368.769290605
 20
-241.9997981592
 10
364.960257317
 20
-244.9326868027
 10
361.1219938725
 20
-247.6390346105
 10
357.2661560154
 20
-250.1106223576
 10
353.4044546426
 20
-252.3399351079
 10
349.5486167854
 20
-254.3202029903
 10
345.7103533409
 20
-256.045419827
 10
341.9013200529
 20
-257.5103474075
 10
338.1330862314
 20
-258.7105213795
 10
334.4170947457
 20
-259.6423169295
 10
330.7646304145
 20
-260.3028879434
 10
327.1867870786
 20
-260.6902407679
 10
323.6944307223
 20
-260.8031885797
 10
320.2981639123
 20
-260.6413962489
 10
317.008304724
 20
-260.2053499191
 10
313.8348445944
 20
-259.4963752543
 10
310.787419347
 20
-258.5166237475
 10
307.8752828492
 20
-257.2690818444
 10
305.1072833049
 20
-255.7575237922
 10
302.491823742
 20
-253.9865405333
 10
300.0368488416
 20
-251.9615229742
 10
297.7498133274
 20
-249.6886133127
 10
295.6376661612
 20
-247.1747111202
 10
293.7068136638
 20
-244.4274581289
 10
291.9631247839
 20
-241.4551926047
 10
290.4118994877
 20
-238.2669402185
 10
289.0578424173
 20
-234.872389709
 10
287.9050681586
 20
-231.2818472553
 10
286.9570749001
 20
-227.5062167027
 10
286.2167444326
 20
-223.55696306
 10
285.6863263441
 20
-219.4460820801
 10
285.3674274831
 20
-215.1860591934
 10
285.2610224957
 20
-210.7898284443
  0
ARC
  5
E2
330
1F
100
AcDbEntity
  8
0
  6
Continuous
 62
     7
370
    25
100
AcDbCircle
 10
477.3339291104
 20
-154.6420698337
 30
0.0
 40
37.91324284012774
100
AcDbArc
 50
49.421917462
 51
59.9754012431
  0
ARC
  5
E3
330
1F
100
AcDbEntity
  8
0
  6
Continuous
 62
     7
370
    25
100
AcDbCircle
 10
402.7645988227
 20
-283.807076142
 30
0.0
 40
37.94192886969571
100
AcDbArc
 50
240.0351390831
 51
250.0836837356
  0
ARC
  5
E4
330
1F
100
AcDbEntity
  8
0
  6
Continuous
 62
     7
370
    25
100
AcDbCircle
 10
475.7987164476
 20
-156.9050867918
 30
0.0
 40
40.64546687651878
100
AcDbArc
 50
35.9139147593
 51
53.5743288279
  0
ARC
  5
E5
330
1F
100
AcDbEntity
  8
0
  6
Continuous
 62
     7
370
    25
100
AcDbCircle
 10
403.8332301531
 20
-281.7643349652
 30
0.0
 40
40.24155603206651
100
AcDbArc
 50
246.3537799742
 51
263.4084590392
  0
ARC
  5
E6
330
1F
100
AcDbEntity
  8
0
  6
Continuous
 62
     7
370
    25
100
AcDbCircle
 10
519.2596361726
 20
-191.7652028443
 30
0.0
 40
36.70946621603775
100
AcDbArc
 50
37.8698224553
 51
47.128835731
  0
ARC
  5
E7
330
1F
100
AcDbEntity
  8
0
  6
Continuous
 62
     7
370
    25
100
AcDbCircle
 10
455.8706107422
 20
-301.5942213292
 30
0.0
 40
36.6928375379291
100
AcDbArc
 50
252.8631678346
 51
263.2354076725
  0
LWPOLYLINE
  5
E8
330
1F
100
AcDbEntity
  8
0
  6
Continuous
 62
     7
370
    25
100
AcDbPolyline
 90
       59
 70
   128
 43
0.0
 10
617.463272712
 20
-206.1931348639
 10
618.1515149431
 20
-206.6015406397
 10
620.7907295234
 20
-208.3886023131
 10
623.2680001067
 20
-210.432009957
 10
625.5758034805
 20
-212.7255635719
 10
627.7071379996
 20
-215.262293619
 10
629.6555235859
 20
-218.034497522
 10
631.4150438758
 20
-221.0337579225
 10
632.9803620244
 20
-224.2509609324
 10
634.3467154379
 20
-227.6763417613
 10
635.5099579201
 20
-231.299493846
 10
636.4665596724
 20
-235.1094144782
 10
637.2136125623
 20
-239.0945337025
 10
637.7488511966
 20
-243.2427470185
 10
638.070642385
 20
-247.5414610076
 10
638.1780167499
 20
-251.977615389
 10
638.070642385
 20
-256.5377415733
 10
637.7488511966
 20
-261.2079877601
 10
637.2136125623
 20
-265.9741744494
 10
636.4665596724
 20
-270.8218225809
 10
635.5099579201
 20
-275.736212087
 10
634.3467154379
 20
-280.702415354
 10
632.9803620244
 20
-285.7053542549
 10
631.4150438758
 20
-290.7298351302
 10
629.6555235859
 20
-295.7605944157
 10
627.7071379996
 20
-300.7823564336
 10
625.5758034805
 20
-305.779872937
 10
623.2680001067
 20
-310.7379596111
 10
620.7907295234
 20
-315.6415629895
 10
618.1515149431
 20
-320.4757969565
 10
615.3583748037
 20
-325.2259731633
 10
612.4197964267
 20
-329.8776649043
 10
609.3446938707
 20
-334.4167466572
 10
606.1424131994
 20
-338.8294336279
 10
602.8226771637
 20
-343.1023258514
 10
599.3955667632
 20
-347.222449256
 10
595.8714922693
 20
-351.1772845573
 10
592.2611563473
 20
-354.954818967
 10
588.5755224463
 20
-358.5435887751
 10
584.8257831888
 20
-361.932691515
 10
581.0233261263
 20
-365.1118361504
 10
577.1797008124
 20
-368.0713620841
 10
573.30657929
 20
-370.8022923864
 10
569.4157238225
 20
-373.2963220049
 10
565.5189513327
 20
-375.5458808801
 10
561.6280958652
 20
-377.5441373633
 10
557.7549743428
 20
-379.2850179856
 10
553.9113490289
 20
-380.7632473791
 10
550.1088919664
 20
-381.9743262195
 10
546.3591527088
 20
-382.9145802734
 10
542.6735188079
 20
-383.5811527899
 10
539.0631828859
 20
-383.9720235087
 10
535.539108392
 20
-384.085998011
 10
532.1119979914
 20
-383.9227320509
 10
528.7922619558
 20
-383.4827254688
 10
525.5899812844
 20
-382.7673130626
 10
522.5148787284
 20
-381.7786691475
 10
519.5763003515
 20
-380.5197877826
 10
517.4714024432
 20
-379.4029083129
  0
LWPOLYLINE
  5
E9
330
1F
100
AcDbEntity
  8
0
  6
Continuous
 62
     1
370
    25
100
AcDbPolyline
 90
       58
 70
   128
 43
0.0
 10
501.9958765088
 20
-125.8461962896
 10
503.4311084095
 20
-127.1367482745
 10
505.8414656024
 20
-129.6184196132
 10
508.0744793935
 20
-132.3417159576
 10
510.1241385885
 20
-135.2992937141
 10
511.9849166819
 20
-138.4831766292
 10
513.6517981988
 20
-141.884786211
 10
515.1202839629
 20
-145.4949478129
 10
516.386417439
 20
-149.3039362643
 10
517.4467847324
 20
-153.3014758702
 10
518.2985303939
 20
-157.4767936454
 10
518.9393626888
 20
-161.8186284403
 10
519.3675377912
 20
-166.315285693
 10
519.5819177362
 20
-170.9546340125
 10
519.5819177362
 20
-175.7241698129
 10
519.3675377912
 20
-180.6110359481
 10
518.9393626888
 20
-185.6020536513
 10
518.2985303939
 20
-190.6837776649
 10
517.4467847324
 20
-195.8425000486
 10
516.386417439
 20
-201.064313672
 10
515.1202839629
 20
-206.3351487186
 10
513.6517981988
 20
-211.6407878946
 10
511.9849166819
 20
-216.9669379107
 10
510.1241385885
 20
-222.2992294823
 10
508.0744793935
 20
-227.6232933733
 10
505.8414656024
 20
-232.9247725627
 10
503.4311084095
 20
-238.1893830798
 10
500.8499142345
 20
-243.4029261719
 10
498.1048373074
 20
-248.5513491373
 10
495.2032849369
 20
-253.6207696605
 10
492.153070095
 20
-258.5975275194
 10
488.9624219538
 20
-263.4682028368
 10
485.6399332021
 20
-268.2196708297
 10
482.1945732162
 20
-272.8391063725
 10
478.6356222051
 20
-277.3140706841
 10
474.9726764795
 20
-281.6324961187
 10
471.2156089387
 20
-285.7827454788
 10
467.3745479971
 20
-289.75362418
 10
463.4598512428
 20
-293.5344258766
 10
459.4820725101
 20
-297.1149575541
 10
455.4519302694
 20
-300.4855821113
 10
451.3802931392
 20
-303.6371902227
 10
447.278137081
 20
-306.5613041372
 10
443.1565190568
 20
-309.250032048
 10
439.0265517585
 20
-311.6961252674
 10
434.8993682924
 20
-313.8929925299
 10
430.7860943564
 20
-315.8347099704
 10
426.6978197578
 20
-317.5160497342
 10
422.6455649096
 20
-318.9324688995
 10
418.6402537481
 20
-320.0801494468
 10
414.6926837691
 20
-320.9560094725
 10
410.8135010031
 20
-321.5576689664
 10
407.0131565513
 20
-321.8835235719
 10
403.3018973665
 20
-321.9326890717
 10
399.6897306908
 20
-321.7050280007
 10
396.1863950805
 20
-321.2011602893
 10
392.8013314297
 20
-320.4224434893
 10
389.8397830203
 20
-319.479742188
  0
ARC
  5
EA
330
1F
100
AcDbEntity
  8
0
  6
Continuous
 62
     1
370
    25
100
AcDbCircle
 10
530.1469727645
 20
-271.2534351206
 30
0.0
 40
161.5549867937615
100
AcDbArc
 50
131.3255953955
 51
168.6797810297
  0
LWPOLYLINE
  5
EB
330
1F
100
AcDbEntity
  8
0
  6
Continuous
 62
     1
370
    25
100
AcDbPolyline
 90
       53
 70
   128
 43
0.0
 10
508.7174480068
 20
-133.0637132964
 10
510.3592942956
 20
-135.4714898277
 10
512.2195297483
 20
-138.6544388435
 10
513.8859160397
 20
-142.0550536933
 10
515.353975067
 20
-145.6641566909
 10
516.6197344899
 20
-149.4720287477
 10
517.6797962185
 20
-153.4683956911
 10
518.5312942674
 20
-157.6424890978
 10
519.1719316331
 20
-161.9830561828
 10
519.5999855633
 20
-166.478394021
 10
519.8143022879
 20
-171.1163831972
 10
519.8143022879
 20
-175.884521647
 10
519.5999855633
 20
-180.7699556465
 10
519.1719316331
 20
-185.7595140327
 10
518.5312942674
 20
-190.839745276
 10
517.6797962185
 20
-195.9969574036
 10
516.6197344899
 20
-201.2172455671
 10
515.353975067
 20
-206.4865323464
 10
513.8859160397
 20
-211.7906202181
 10
512.2195297483
 20
-217.1152037272
 10
510.3592942956
 20
-222.4459348799
 10
508.3102356932
 20
-227.7684383573
 10
506.0778751783
 20
-233.0683693056
 10
503.6682239451
 20
-238.3314346283
 10
501.0877884133
 20
-243.5434507821
 10
498.3435175447
 20
-248.6903681066
 10
495.4428081112
 20
-253.7583042854
 10
492.3934888898
 20
-258.7336021395
 10
489.2037732476
 20
-263.6028509161
 10
485.8822644102
 20
-268.3529197492
 10
482.4379106802
 20
-272.9710078462
 10
478.8800028036
 20
-277.4446642594
 10
475.2181291885
 20
-281.7618259054
 10
471.4621627341
 20
-285.9108555863
 10
467.6222292207
 20
-289.8805663222
 10
463.7086783339
 20
-293.6602624134
 10
459.7320625908
 20
-297.2397516053
 10
455.703103096
 20
-300.609383109
 10
451.6326579314
 20
-303.7600719326
 10
447.5317030583
 20
-306.6833281577
 10
443.4112931341
 20
-309.3712673917
 10
439.2825354997
 20
-311.8166440359
 10
435.1565608743
 20
-314.0128682028
 10
431.0444927334
 20
-315.9540173104
 10
426.9574153687
 20
-317.6348606043
 10
422.9063472177
 20
-319.0508623869
 10
418.9022095825
 20
-320.1982122429
 10
414.9557986418
 20
-321.0738107781
 10
411.0777485723
 20
-321.6753030764
 10
407.2785183779
 20
-322.0010558845
 10
403.5683471086
 20
-322.0502077981
 10
399.9572393725
 20
-321.8226167889
 10
399.2138822344
 20
-321.7398832002
  0
LWPOLYLINE
  5
EC
330
1F
100
AcDbEntity
  8
0
  6
Continuous
 62
     1
370
    25
100
AcDbPolyline
 90
       51
 70
   128
 43
0.0
 10
548.2383647801
 20
-169.2303809423
 10
549.5624185628
 20
-171.0322303664
 10
551.3868871462
 20
-173.9124965861
 10
553.0226116053
 20
-177.0109066896
 10
554.4647134423
 20
-180.3182129904
 10
555.7088936787
 20
-183.8245366721
 10
556.7514328551
 20
-187.5194210209
 10
557.5892279098
 20
-191.3918329501
 10
558.2197658369
 20
-195.4302245948
 10
558.6411763701
 20
-199.6225348381
 10
558.8521951039
 20
-203.9562579393
 10
558.8521951039
 20
-208.4184576052
 10
558.6411763701
 20
-212.9958177505
 10
558.2197658369
 20
-217.6746782389
 10
557.5892279098
 20
-222.4410734784
 10
556.7514328551
 20
-227.2807829882
 10
555.7088936787
 20
-232.1793574488
 10
554.4647134423
 20
-237.1221810547
 10
553.0226116053
 20
-242.0945026956
 10
551.3868871462
 20
-247.0814800603
 10
549.5624185628
 20
-252.0682328686
 10
547.5546586036
 20
-257.0398808943
 10
545.3695973894
 20
-261.9815774221
 10
543.0137518766
 20
-266.8785883344
 10
540.4941553207
 20
-271.716286027
 10
537.8183309341
 20
-276.480240662
 10
534.9942550079
 20
-281.1562292901
 10
532.03036218
 20
-285.730305813
 10
528.9354980205
 20
-290.1888101056
 10
525.7189005915
 20
-294.5184394968
 10
522.3901635695
 20
-298.7062761433
 10
518.9592230741
 20
-302.7398189674
 10
515.4363234236
 20
-306.6070277609
 10
511.8319723541
 20
-310.2963612042
 10
508.1569291659
 20
-313.7968141272
 10
504.4221612592
 20
-317.0979365177
 10
500.6388138412
 20
-320.189881427
 10
496.8181802917
 20
-323.0634099104
 10
492.971661004
 20
-325.7099573738
 10
489.1107355613
 20
-328.1216192171
 10
485.2469270107
 20
-330.2912018772
 10
481.3917659726
 20
-332.2122252962
 10
477.5567583722
 20
-333.8789598002
 10
473.7533483957
 20
-335.2864353172
 10
469.9928893507
 20
-336.4304460319
 10
466.2866008598
 20
-337.3075811802
 10
462.6455438365
 20
-337.9152151612
 10
459.0805895337
 20
-338.2515436561
 10
455.602370811
 20
-338.3155570074
 10
452.2212715981
 20
-338.1070706365
 10
451.5485499439
 20
-338.0316213056
  0
ARC
  5
ED
330
1F
100
AcDbEntity
  8
0
  6
Continuous
 62
     1
370
    25
100
AcDbCircle
 10
531.3140345827
 20
-271.927159809
 30
0.0
 40
162.09673992738
100
AcDbArc
 50
131.8148403518
 51
168.1905383355
  0
LWPOLYLINE
  5
EE
330
1F
100
AcDbEntity
  8
0
  6
Continuous
 62
     1
370
    25
100
AcDbPolyline
 90
       55
 70
   128
 43
0.0
 10
543.3382167557
 20
-164.0312134767
 10
544.2009469397
 20
-164.7875717328
 10
546.5087503134
 20
-167.0811253478
 10
548.6400848325
 20
-169.6178553948
 10
550.5884704189
 20
-172.3900592978
 10
552.3479907087
 20
-175.3893196983
 10
553.9133088574
 20
-178.6065227082
 10
555.2796622709
 20
-182.0319035372
 10
556.4429047531
 20
-185.6550556219
 10
557.3995065054
 20
-189.464976254
 10
558.1465593952
 20
-193.4500954783
 10
558.6817980295
 20
-197.5983087944
 10
559.0035892179
 20
-201.8970227834
 10
559.1109635828
 20
-206.3331771648
 10
559.0035892179
 20
-210.8933033491
 10
558.6817980295
 20
-215.563549536
 10
558.1465593952
 20
-220.3297362253
 10
557.3995065054
 20
-225.1773843567
 10
556.4429047531
 20
-230.0917738628
 10
555.2796622709
 20
-235.0579771298
 10
553.9133088574
 20
-240.0609160307
 10
552.3479907087
 20
-245.0853969061
 10
550.5884704189
 20
-250.1161561916
 10
548.6400848325
 20
-255.1379182094
 10
546.5087503134
 20
-260.1354347129
 10
544.2009469397
 20
-265.093521387
 10
541.7236763564
 20
-269.9971247654
 10
539.0844617761
 20
-274.8313587323
 10
536.2913216366
 20
-279.5815349391
 10
533.3527432597
 20
-284.2332266801
 10
530.2776407037
 20
-288.7723084331
 10
527.0753600323
 20
-293.1849954037
 10
523.7556239967
 20
-297.4578876273
 10
520.3285135961
 20
-301.5780110318
 10
516.8044391022
 20
-305.5328463332
 10
513.1941031803
 20
-309.3103807428
 10
509.5084692793
 20
-312.8991505509
 10
505.7587300217
 20
-316.2882532908
 10
501.9562729592
 20
-319.4673979263
 10
498.1126476453
 20
-322.4269238599
 10
494.2395261229
 20
-325.1578541622
 10
490.3486706555
 20
-327.6518837808
 10
486.4518981656
 20
-329.901442656
 10
482.5610426981
 20
-331.8996991391
 10
478.6879211757
 20
-333.6405797615
 10
474.8442958618
 20
-335.1188091549
 10
471.0418387993
 20
-336.3298879953
 10
467.2920995418
 20
-337.2701420493
 10
463.6064656408
 20
-337.9367145657
 10
459.9961297189
 20
-338.3275852845
 10
456.4720552249
 20
-338.4415597868
 10
453.0449448244
 20
-338.2782938267
 10
449.7252087887
 20
-337.8382872446
 10
446.5229281174
 20
-337.1228748384
 10
443.8915317774
 20
-336.2965887991
  0
ENDSEC
  0
SECTION
  2
OBJECTS
  0
DICTIONARY
  5
C
330
0
100
AcDbDictionary
281
     1
  3
ACAD_GROUP
350
D
  3
ACAD_LAYOUT
350
1A
  3
ACAD_MLINESTYLE
350
17
  3
ACAD_PLOTSETTINGS
350
19
  3
ACAD_PLOTSTYLENAME
350
E
  3
ACAD_SCALELIST
350
47
  0
DICTIONARY
  5
D
102
{ACAD_REACTORS
330
C
102
}
330
C
100
AcDbDictionary
281
     1
  0
DICTIONARY
  5
1A
102
{ACAD_REACTORS
330
C
102
}
330
C
100
AcDbDictionary
281
     1
  3
Layout1
350
1E
  3
Layout2
350
26
  3
Model
350
22
  0
DICTIONARY
  5
17
102
{ACAD_REACTORS
330
C
102
}
330
C
100
AcDbDictionary
281
     1
  3
Standard
350
18
  0
DICTIONARY
  5
19
102
{ACAD_REACTORS
330
C
102
}
330
C
100
AcDbDictionary
281
     1
  0
ACDBDICTIONARYWDFLT
  5
E
102
{ACAD_REACTORS
330
C
102
}
330
C
100
AcDbDictionary
281
     1
  3
Normal
350
F
100
AcDbDictionaryWithDefault
340
F
  0
DICTIONARY
  5
47
102
{ACAD_REACTORS
330
C
102
}
330
C
100
AcDbDictionary
281
     1
  3
A0
350
48
  3
A1
350
49
  3
A2
350
4A
  3
A3
350
4B
  3
A4
350
4C
  3
A5
350
4D
  3
A6
350
4E
  3
A7
350
4F
  3
A8
350
50
  3
A9
350
51
  3
B0
350
52
  3
B1
350
53
  3
B2
350
54
  3
B3
350
55
  3
B4
350
56
  3
B5
350
57
  3
B6
350
58
  3
B7
350
59
  3
B8
350
5A
  3
B9
350
5B
  3
C0
350
5C
  3
C1
350
5D
  3
C2
350
5E
  3
C3
350
5F
  3
C4
350
60
  3
C5
350
61
  3
C6
350
62
  3
C7
350
63
  3
C8
350
64
  3
C9
350
65
  3
D0
350
66
  3
D1
350
67
  3
D2
350
68
  0
LAYOUT
  5
1E
102
{ACAD_REACTORS
330
1A
102
}
330
1A
100
AcDbPlotSettings
  1

  2
none_device
  4

  6

 40
0.0
 41
0.0
 42
0.0
 43
0.0
 44
0.0
 45
0.0
 46
0.0
 47
0.0
 48
0.0
 49
0.0
140
0.0
141
0.0
142
1.0
143
1.0
 70
   688
 72
     1
 73
     0
 74
     5
  7

 75
    16
147
1.0
148
0.0
149
0.0
100
AcDbLayout
  1
Layout1
 70
     1
 71
     1
 10
0.0
 20
0.0
 11
420.0
 21
297.0
 12
0.0
 22
0.0
 32
0.0
 14
1.0000000000E+20
 24
1.0000000000E+20
 34
1.0000000000E+20
 15
-1.0000000000E+20
 25
-1.0000000000E+20
 35
-1.0000000000E+20
146
0.0
 13
0.0
 23
0.0
 33
0.0
 16
1.0
 26
0.0
 36
0.0
 17
0.0
 27
1.0
 37
0.0
 76
     0
330
1B
  0
LAYOUT
  5
26
102
{ACAD_REACTORS
330
1A
102
}
330
1A
100
AcDbPlotSettings
  1

  2
none_device
  4

  6

 40
0.0
 41
0.0
 42
0.0
 43
0.0
 44
0.0
 45
0.0
 46
0.0
 47
0.0
 48
0.0
 49
0.0
140
0.0
141
0.0
142
1.0
143
1.0
 70
   688
 72
     1
 73
     0
 74
     5
  7

 75
    16
147
1.0
148
0.0
149
0.0
100
AcDbLayout
  1
Layout2
 70
     1
 71
     2
 10
0.0
 20
0.0
 11
0.0
 21
0.0
 12
0.0
 22
0.0
 32
0.0
 14
0.0
 24
0.0
 34
0.0
 15
0.0
 25
0.0
 35
0.0
146
0.0
 13
0.0
 23
0.0
 33
0.0
 16
1.0
 26
0.0
 36
0.0
 17
0.0
 27
1.0
 37
0.0
 76
     0
330
23
  0
LAYOUT
  5
22
102
{ACAD_REACTORS
330
1A
102
}
330
1A
100
AcDbPlotSettings
  1

  2
none_device
  4
Letter_(8.50_x_11.00_Inches)
  6

 40
6.35
 41
6.35
 42
6.35000508
 43
6.35000508
 44
215.9
 45
279.4
 46
0.0
 47
0.0
 48
0.0
 49
0.0
140
0.0
141
0.0
142
1.0
143
1.0
 70
  1712
 72
     1
 73
     0
 74
     0
  7

 75
     0
147
1.0
148
0.0
149
0.0
100
AcDbLayout
  1
Model
 70
     1
 71
     0
 10
0.0
 20
0.0
 11
279.4
 21
215.9
 12
0.0
 22
0.0
 32
0.0
 14
0.0
 24
0.0
 34
0.0
 15
279.4
 25
215.9
 35
0.0
146
0.0
 13
0.0
 23
0.0
 33
0.0
 16
1.0
 26
0.0
 36
0.0
 17
0.0
 27
1.0
 37
0.0
 76
     0
330
1F
331
29
  0
MLINESTYLE
  5
18
102
{ACAD_REACTORS
330
17
102
}
330
17
100
AcDbMlineStyle
  2
Standard
 70
     0
  3

 62
   256
 51
90.0
 52
90.0
 71
     2
 49
0.5
 62
   256
  6
BYLAYER
 49
-0.5
 62
   256
  6
BYLAYER
  0
ACDBPLACEHOLDER
  5
F
102
{ACAD_REACTORS
330
E
102
}
330
E
  0
SCALE
  5
48
102
{ACAD_REACTORS
330
47
102
}
330
47
100
AcDbScale
 70
     0
300
1:1
140
1.0
141
1.0
290
     1
  0
SCALE
  5
49
102
{ACAD_REACTORS
330
47
102
}
330
47
100
AcDbScale
 70
     0
300
1:2
140
1.0
141
2.0
290
     0
  0
SCALE
  5
4A
102
{ACAD_REACTORS
330
47
102
}
330
47
100
AcDbScale
 70
     0
300
1:4
140
1.0
141
4.0
290
     0
  0
SCALE
  5
4B
102
{ACAD_REACTORS
330
47
102
}
330
47
100
AcDbScale
 70
     0
300
1:5
140
1.0
141
5.0
290
     0
  0
SCALE
  5
4C
102
{ACAD_REACTORS
330
47
102
}
330
47
100
AcDbScale
 70
     0
300
1:8
140
1.0
141
8.0
290
     0
  0
SCALE
  5
4D
102
{ACAD_REACTORS
330
47
102
}
330
47
100
AcDbScale
 70
     0
300
1:10
140
1.0
141
10.0
290
     0
  0
SCALE
  5
4E
102
{ACAD_REACTORS
330
47
102
}
330
47
100
AcDbScale
 70
     0
300
1:16
140
1.0
141
16.0
290
     0
  0
SCALE
  5
4F
102
{ACAD_REACTORS
330
47
102
}
330
47
100
AcDbScale
 70
     0
300
1:20
140
1.0
141
20.0
290
     0
  0
SCALE
  5
50
102
{ACAD_REACTORS
330
47
102
}
330
47
100
AcDbScale
 70
     0
300
1:30
140
1.0
141
30.0
290
     0
  0
SCALE
  5
51
102
{ACAD_REACTORS
330
47
102
}
330
47
100
AcDbScale
 70
     0
300
1:40
140
1.0
141
40.0
290
     0
  0
SCALE
  5
52
102
{ACAD_REACTORS
330
47
102
}
330
47
100
AcDbScale
 70
     0
300
1:50
140
1.0
141
50.0
290
     0
  0
SCALE
  5
53
102
{ACAD_REACTORS
330
47
102
}
330
47
100
AcDbScale
 70
     0
300
1:100
140
1.0
141
100.0
290
     0
  0
SCALE
  5
54
102
{ACAD_REACTORS
330
47
102
}
330
47
100
AcDbScale
 70
     0
300
2:1
140
2.0
141
1.0
290
     0
  0
SCALE
  5
55
102
{ACAD_REACTORS
330
47
102
}
330
47
100
AcDbScale
 70
     0
300
4:1
140
4.0
141
1.0
290
     0
  0
SCALE
  5
56
102
{ACAD_REACTORS
330
47
102
}
330
47
100
AcDbScale
 70
     0
300
8:1
140
8.0
141
1.0
290
     0
  0
SCALE
  5
57
102
{ACAD_REACTORS
330
47
102
}
330
47
100
AcDbScale
 70
     0
300
10:1
140
10.0
141
1.0
290
     0
  0
SCALE
  5
58
102
{ACAD_REACTORS
330
47
102
}
330
47
100
AcDbScale
 70
     0
300
100:1
140
100.0
141
1.0
290
     0
  0
SCALE
  5
59
102
{ACAD_REACTORS
330
47
102
}
330
47
100
AcDbScale
 70
     0
300
1/128" = 1'-0"
140
0.0078125
141
12.0
290
     0
  0
SCALE
  5
5A
102
{ACAD_REACTORS
330
47
102
}
330
47
100
AcDbScale
 70
     0
300
1/64" = 1'-0"
140
0.015625
141
12.0
290
     0
  0
SCALE
  5
5B
102
{ACAD_REACTORS
330
47
102
}
330
47
100
AcDbScale
 70
     0
300
1/32" = 1'-0"
140
0.03125
141
12.0
290
     0
  0
SCALE
  5
5C
102
{ACAD_REACTORS
330
47
102
}
330
47
100
AcDbScale
 70
     0
300
1/16" = 1'-0"
140
0.0625
141
12.0
290
     0
  0
SCALE
  5
5D
102
{ACAD_REACTORS
330
47
102
}
330
47
100
AcDbScale
 70
     0
300
3/32" = 1'-0"
140
0.09375
141
12.0
290
     0
  0
SCALE
  5
5E
102
{ACAD_REACTORS
330
47
102
}
330
47
100
AcDbScale
 70
     0
300
1/8" = 1'-0"
140
0.125
141
12.0
290
     0
  0
SCALE
  5
5F
102
{ACAD_REACTORS
330
47
102
}
330
47
100
AcDbScale
 70
     0
300
3/16" = 1'-0"
140
0.1875
141
12.0
290
     0
  0
SCALE
  5
60
102
{ACAD_REACTORS
330
47
102
}
330
47
100
AcDbScale
 70
     0
300
1/4" = 1'-0"
140
0.25
141
12.0
290
     0
  0
SCALE
  5
61
102
{ACAD_REACTORS
330
47
102
}
330
47
100
AcDbScale
 70
     0
300
3/8" = 1'-0"
140
0.375
141
12.0
290
     0
  0
SCALE
  5
62
102
{ACAD_REACTORS
330
47
102
}
330
47
100
AcDbScale
 70
     0
300
1/2" = 1'-0"
140
0.5
141
12.0
290
     0
  0
SCALE
  5
63
102
{ACAD_REACTORS
330
47
102
}
330
47
100
AcDbScale
 70
     0
300
3/4" = 1'-0"
140
0.75
141
12.0
290
     0
  0
SCALE
  5
64
102
{ACAD_REACTORS
330
47
102
}
330
47
100
AcDbScale
 70
     0
300
1" = 1'-0"
140
1.0
141
12.0
290
     0
  0
SCALE
  5
65
102
{ACAD_REACTORS
330
47
102
}
330
47
100
AcDbScale
 70
     0
300
1-1/2" = 1'-0"
140
1.5
141
12.0
290
     0
  0
SCALE
  5
66
102
{ACAD_REACTORS
330
47
102
}
330
47
100
AcDbScale
 70
     0
300
3" = 1'-0"
140
3.0
141
12.0
290
     0
  0
SCALE
  5
67
102
{ACAD_REACTORS
330
47
102
}
330
47
100
AcDbScale
 70
     0
300
6" = 1'-0"
140
6.0
141
12.0
290
     0
  0
SCALE
  5
68
102
{ACAD_REACTORS
330
47
102
}
330
47
100
AcDbScale
 70
     0
300
1'-0" = 1'-0"
140
12.0
141
12.0
290
     0
  0
ENDSEC
  0
EOF
